Skankin Tabs


SCROLL DOWN FOR TABS EMAIL ME IF YOU WANT TO ADD ANY I JUST STARTED THE PAGE SO I ONLY HAVE ONE SO FAR!


MU330 TABS:

-------------------------------------------------------------------------------

TUNE ME OUT - MU330

-------------------------------------------------------------------------------

By: Mike Welch Athorn103@aol.com

Intro:

e|--------------------------------------------------------------------

B|--------------------------------------------------------------------

G|-------7--6--4------------------------------------------------------

D|----7--7--6--4-(x4)-----8-8-8-9-11-12-11-11-12-12-11-(x2)-----------

A|----7--5--4--2------------------------------------------------------

E|----5---------------------------------------------------------------

.Turn it on, turn it on, turn it on

e|--------------------------------------------------------------------

B|--------------------------------------------------------------------

G|------7--9----------------------------------------------------------

D|---7--7--9----------------------------------------------------------

A|---7--5--7----------------------------------------------------------

E|---5----------------------------------------------------------------

Verse

e|--------------------------------------------------------------------

B|--------------------------------------------------------------------

G|--------------------------------------------------------------------

D|---7----------------------------------------------------------------

A|---7----------------------------------------------------------------

E|---5----------------------------------------------------------------

End

e|--------------------------------------------------------------------

B|--------------------------------------------------------------------

G|-----7--6--4--------------------------------------------------------

D|--7--7--6--4-(x4)-----8-8-8-9-11-12-11-11-12-12-11--8-8-8-9-11------

A|--7--5--4--2--------------------------------------------------------

E|--5-----------------------------------------------------------------

This probably a little off, but it's so close to the real thing

-------------------------------------------------------------------------------